ISO-10303-21;
HEADER;
FILE_DESCRIPTION (( 'STEP AP203' ),
    '1' );
FILE_NAME ('Q-QZWP-R4-10-532-M.STEP',
    '2020-12-23T01:22:08',
    ( '' ),
    ( '' ),
    'SwSTEP 2.0',
    'SolidWorks 2020',
    '' );
FILE_SCHEMA (( 'CONFIG_CONTROL_DESIGN' ));
ENDSEC;

DATA;
#1 = DIRECTION ( 'NONE',  ( 0.000000000000000000, 0.000000000000000000, 1.000000000000000000 ) ) ;
#2 = DIRECTION ( 'NONE',  ( 1.000000000000000000, 0.000000000000000000, 0.000000000000000000 ) ) ;
#3 = AXIS2_PLACEMENT_3D ( 'NONE', #199, #103, #206 ) ;
#4 = ADVANCED_BREP_SHAPE_REPRESENTATION ( 'Q-QZWP-R4-10-532-M', ( #207, #315 ), #123 ) ;
#5 = AXIS2_PLACEMENT_3D ( 'NONE', #225, #68, #66 ) ;
#6 = VERTEX_POINT ( 'NONE', #192 ) ;
#7 = PERSON_AND_ORGANIZATION ( #78, #266 ) ;
#8 = APPLICATION_CONTEXT ( 'configuration controlled 3d designs of mechanical parts and assemblies' ) ;
#9 = VERTEX_POINT ( 'NONE', #215 ) ;
#10 = DATE_AND_TIME ( #213, #212 ) ;
#11 = COORDINATED_UNIVERSAL_TIME_OFFSET ( 8, 0, .AHEAD. ) ;
#12 = ADVANCED_FACE ( 'NONE', ( #161 ), #138, .F. ) ;
#13 = ORIENTED_EDGE ( 'NONE', *, *, #250, .F. ) ;
#14 = APPLICATION_PROTOCOL_DEFINITION ( 'international standard', 'config_control_design', 1994, #226 ) ;
#15 = AXIS2_PLACEMENT_3D ( 'NONE', #260, #198, #102 ) ;
#16 = ORIENTED_EDGE ( 'NONE', *, *, #263, .F. ) ;
#17 = PERSON_AND_ORGANIZATION ( #78, #266 ) ;
#18 = EDGE_LOOP ( 'NONE', ( #13, #44, #139, #221 ) ) ;
#19 = ADVANCED_FACE ( 'NONE', ( #23 ), #201, .F. ) ;
#20 = LINE ( 'NONE', #230, #322 ) ;
#21 = CARTESIAN_POINT ( 'NONE',  ( -1.614212418857619014, 0.000000000000000000, 0.000000000000000000 ) ) ;
#22 = CC_DESIGN_APPROVAL ( #108, ( #100 ) ) ;
#23 = FACE_OUTER_BOUND ( 'NONE', #18, .T. ) ;
#24 = DIRECTION ( 'NONE',  ( 0.000000000000000000, 0.000000000000000000, 1.000000000000000000 ) ) ;
#25 = CARTESIAN_POINT ( 'NONE',  ( 1.250000000000000222, 5.000000000000000000, 0.000000000000000000 ) ) ;
#26 = DIRECTION ( 'NONE',  ( 0.000000000000000000, 0.000000000000000000, -1.000000000000000000 ) ) ;
#27 = CARTESIAN_POINT ( 'NONE',  ( 1.250000000000000444, 0.000000000000000000, 0.000000000000000000 ) ) ;
#28 = APPROVAL ( #268, 'UNSPECIFIED' ) ;
#29 = LINE ( 'NONE', #71, #255 ) ;
#30 = APPROVAL_PERSON_ORGANIZATION ( #7, #108, #210 ) ;
#31 = ADVANCED_FACE ( 'NONE', ( #278, #233 ), #151, .F. ) ;
#32 = VECTOR ( 'NONE', #261, 1000.000000000000000 ) ;
#33 = APPROVAL_STATUS ( 'not_yet_approved' ) ;
#34 = EDGE_CURVE ( 'NONE', #6, #109, #92, .T. ) ;
#35 = VERTEX_POINT ( 'NONE', #334 ) ;
#36 = VECTOR ( 'NONE', #279, 1000.000000000000000 ) ;
#37 = DIRECTION ( 'NONE',  ( -1.000000000000000000, -0.000000000000000000, -0.000000000000000000 ) ) ;
#38 = PRODUCT ( 'Q-QZWP-R4-10-532-M', 'Q-QZWP-R4-10-532-M', '', ( #270 ) ) ;
#39 = SHAPE_DEFINITION_REPRESENTATION ( #47, #4 ) ;
#40 = ADVANCED_FACE ( 'NONE', ( #52 ), #327, .F. ) ;
#41 = PLANE ( 'NONE',  #5 ) ;
#42 = ORIENTED_EDGE ( 'NONE', *, *, #238, .T. ) ;
#43 = COORDINATED_UNIVERSAL_TIME_OFFSET ( 8, 0, .AHEAD. ) ;
#44 = ORIENTED_EDGE ( 'NONE', *, *, #147, .T. ) ;
#45 = VECTOR ( 'NONE', #177, 1000.000000000000000 ) ;
#46 = EDGE_LOOP ( 'NONE', ( #42, #62, #243, #144 ) ) ;
#47 = PRODUCT_DEFINITION_SHAPE ( 'NONE', 'NONE',  #50 ) ;
#48 = COORDINATED_UNIVERSAL_TIME_OFFSET ( 8, 0, .AHEAD. ) ;
#49 = CARTESIAN_POINT ( 'NONE',  ( 1.250000000000000444, 0.000000000000000000, 5.000000000000000000 ) ) ;
#50 = PRODUCT_DEFINITION ( 'UNKNOWN', '', #105, #135 ) ;
#51 = DIRECTION ( 'NONE',  ( 1.000000000000000000, 0.000000000000000000, 0.000000000000000000 ) ) ;
#52 = FACE_OUTER_BOUND ( 'NONE', #142, .T. ) ;
#53 = CARTESIAN_POINT ( 'NONE',  ( 3.000000000000000000, 0.000000000000000000, 5.000000000000001776 ) ) ;
#54 = LOCAL_TIME ( 9, 22, 8.000000000000000000, #11 ) ;
#55 = DIRECTION ( 'NONE',  ( 0.000000000000000000, 0.000000000000000000, 1.000000000000000000 ) ) ;
#56 = DIRECTION ( 'NONE',  ( 0.000000000000000000, 0.000000000000000000, 1.000000000000000000 ) ) ;
#57 = DIRECTION ( 'NONE',  ( 0.000000000000000000, 0.000000000000000000, 1.000000000000000000 ) ) ;
#58 = CARTESIAN_POINT ( 'NONE',  ( -1.614212418857619014, 1.555301434917138433E-15, -12.69999999999999929 ) ) ;
#59 = AXIS2_PLACEMENT_3D ( 'NONE', #98, #283, #56 ) ;
#60 = ORIENTED_EDGE ( 'NONE', *, *, #202, .F. ) ;
#61 = CIRCLE ( 'NONE', #184, 5.000000000000000000 ) ;
#62 = ORIENTED_EDGE ( 'NONE', *, *, #89, .T. ) ;
#63 = ORIENTED_EDGE ( 'NONE', *, *, #156, .F. ) ;
#64 = PERSON_AND_ORGANIZATION_ROLE ( 'design_supplier' ) ;
#65 = ORIENTED_EDGE ( 'NONE', *, *, #185, .T. ) ;
#66 = DIRECTION ( 'NONE',  ( 0.000000000000000000, 0.000000000000000000, -1.000000000000000000 ) ) ;
#67 = ORIENTED_EDGE ( 'NONE', *, *, #236, .T. ) ;
#68 = DIRECTION ( 'NONE',  ( 1.000000000000000000, 0.000000000000000000, 0.000000000000000000 ) ) ;
#69 = LINE ( 'NONE', #174, #36 ) ;
#70 = DIRECTION ( 'NONE',  ( 0.000000000000000000, 0.000000000000000000, 1.000000000000000000 ) ) ;
#71 = CARTESIAN_POINT ( 'NONE',  ( -1.614212418857619014, 0.000000000000000000, 5.000000000000000888 ) ) ;
#72 = CIRCLE ( 'NONE', #262, 5.000000000000000888 ) ;
#73 = CARTESIAN_POINT ( 'NONE',  ( -3.000000000000000000, 5.000000000000000000, 0.000000000000000000 ) ) ;
#74 = DIRECTION ( 'NONE',  ( -1.000000000000000000, -0.000000000000000000, -0.000000000000000000 ) ) ;
#75 = DIRECTION ( 'NONE',  ( 0.000000000000000000, 0.000000000000000000, 1.000000000000000000 ) ) ;
#76 = FACE_OUTER_BOUND ( 'NONE', #136, .T. ) ;
#77 = CARTESIAN_POINT ( 'NONE',  ( 1.250000000000000444, 0.000000000000000000, 0.000000000000000000 ) ) ;
#78 = PERSON ( 'UNSPECIFIED', 'UNSPECIFIED', 'UNSPECIFIED', ('UNSPECIFIED'), ('UNSPECIFIED'), ('UNSPECIFIED') ) ;
#79 = CC_DESIGN_PERSON_AND_ORGANIZATION_ASSIGNMENT ( #116, #275, ( #50 ) ) ;
#80 = CIRCLE ( 'NONE', #121, 5.000000000000001776 ) ;
#81 = ADVANCED_FACE ( 'NONE', ( #259, #204 ), #254, .F. ) ;
#82 = EDGE_LOOP ( 'NONE', ( #244, #60 ) ) ;
#83 = COORDINATED_UNIVERSAL_TIME_OFFSET ( 8, 0, .AHEAD. ) ;
#84 = EDGE_LOOP ( 'NONE', ( #164, #265, #292, #171 ) ) ;
#85 = AXIS2_PLACEMENT_3D ( 'NONE', #25, #93, #148 ) ;
#86 = ORIENTED_EDGE ( 'NONE', *, *, #224, .T. ) ;
#87 = CALENDAR_DATE ( 2020, 23, 12 ) ;
#88 = VERTEX_POINT ( 'NONE', #95 ) ;
#89 = EDGE_CURVE ( 'NONE', #269, #35, #304, .T. ) ;
#90 = PERSON_AND_ORGANIZATION_ROLE ( 'classification_officer' ) ;
#91 = EDGE_LOOP ( 'NONE', ( #271, #273 ) ) ;
#92 = CIRCLE ( 'NONE', #264, 5.000000000000000000 ) ;
#93 = DIRECTION ( 'NONE',  ( -1.000000000000000000, 0.000000000000000000, -0.000000000000000000 ) ) ;
#94 = CARTESIAN_POINT ( 'NONE',  ( -1.614212418857619014, 0.000000000000000000, 12.69999999999999929 ) ) ;
#95 = CARTESIAN_POINT ( 'NONE',  ( -1.250000000000000222, 6.123233995736767268E-16, -5.000000000000000888 ) ) ;
#96 = EDGE_CURVE ( 'NONE', #35, #9, #162, .T. ) ;
#97 = CARTESIAN_POINT ( 'NONE',  ( 3.000000000000000000, 6.123233995736768255E-16, -5.000000000000001776 ) ) ;
#98 = CARTESIAN_POINT ( 'NONE',  ( -3.000000000000000000, 0.000000000000000000, 0.000000000000000000 ) ) ;
#99 = FACE_OUTER_BOUND ( 'NONE', #46, .T. ) ;
#100 = SECURITY_CLASSIFICATION ( '', '', #167 ) ;
#101 = DIRECTION ( 'NONE',  ( -1.000000000000000000, -0.000000000000000000, -0.000000000000000000 ) ) ;
#102 = DIRECTION ( 'NONE',  ( 0.000000000000000000, 0.000000000000000000, 1.000000000000000000 ) ) ;
#103 = DIRECTION ( 'NONE',  ( -1.000000000000000000, -0.000000000000000000, -0.000000000000000000 ) ) ;
#104 = CC_DESIGN_DATE_AND_TIME_ASSIGNMENT ( #242, #320, ( #100 ) ) ;
#105 = PRODUCT_DEFINITION_FORMATION_WITH_SPECIFIED_SOURCE ( 'ANY', '', #38, .NOT_KNOWN. ) ;
#106 = CC_DESIGN_SECURITY_CLASSIFICATION ( #100, ( #105 ) ) ;
#107 = LOCAL_TIME ( 9, 22, 8.000000000000000000, #48 ) ;
#108 = APPROVAL ( #33, 'UNSPECIFIED' ) ;
#109 = VERTEX_POINT ( 'NONE', #49 ) ;
#110 = DATE_AND_TIME ( #300, #169 ) ;
#111 = DIRECTION ( 'NONE',  ( 0.000000000000000000, 0.000000000000000000, 1.000000000000000000 ) ) ;
#112 = CALENDAR_DATE ( 2020, 23, 12 ) ;
#113 = APPROVAL_DATE_TIME ( #251, #28 ) ;
#114 = ORIENTED_EDGE ( 'NONE', *, *, #159, .T. ) ;
#115 = CIRCLE ( 'NONE', #335, 5.000000000000000888 ) ;
#116 = PERSON_AND_ORGANIZATION ( #78, #266 ) ;
#117 = EDGE_LOOP ( 'NONE', ( #168, #16 ) ) ;
#118 = CC_DESIGN_PERSON_AND_ORGANIZATION_ASSIGNMENT ( #17, #90, ( #100 ) ) ;
#119 = VERTEX_POINT ( 'NONE', #309 ) ;
#120 = CARTESIAN_POINT ( 'NONE',  ( -3.000000000000000000, 0.000000000000000000, 0.000000000000000000 ) ) ;
#121 = AXIS2_PLACEMENT_3D ( 'NONE', #333, #74, #57 ) ;
#122 = DIRECTION ( 'NONE',  ( -1.000000000000000000, -0.000000000000000000, -0.000000000000000000 ) ) ;
#123 =( GEOMETRIC_REPRESENTATION_CONTEXT ( 3 ) GLOBAL_UNCERTAINTY_ASSIGNED_CONTEXT ( ( #287 ) ) GLOBAL_UNIT_ASSIGNED_CONTEXT ( ( #218, #303, #165 ) ) REPRESENTATION_CONTEXT ( 'NONE', 'WORKASPACE' ) );
#124 = PRODUCT_RELATED_PRODUCT_CATEGORY ( 'detail', '', ( #38 ) ) ;
#125 = DIRECTION ( 'NONE',  ( -1.000000000000000000, 0.000000000000000000, -0.000000000000000000 ) ) ;
#126 = DIRECTION ( 'NONE',  ( 1.000000000000000000, 0.000000000000000000, 0.000000000000000000 ) ) ;
#127 = DIRECTION ( 'NONE',  ( -1.000000000000000000, -0.000000000000000000, -0.000000000000000000 ) ) ;
#128 = CARTESIAN_POINT ( 'NONE',  ( 3.000000000000000000, 0.000000000000000000, 0.000000000000000000 ) ) ;
#129 = DIRECTION ( 'NONE',  ( 0.000000000000000000, 0.000000000000000000, 1.000000000000000000 ) ) ;
#130 = DIRECTION ( 'NONE',  ( 0.000000000000000000, 0.000000000000000000, 1.000000000000000000 ) ) ;
#131 = AXIS2_PLACEMENT_3D ( 'NONE', #21, #122, #228 ) ;
#132 = EDGE_CURVE ( 'NONE', #109, #6, #240, .T. ) ;
#133 = ADVANCED_FACE ( 'NONE', ( #178 ), #146, .T. ) ;
#134 = AXIS2_PLACEMENT_3D ( 'NONE', #27, #197, #70 ) ;
#135 = DESIGN_CONTEXT ( 'detailed design', #226, 'design' ) ;
#136 = EDGE_LOOP ( 'NONE', ( #219, #296, #86, #317 ) ) ;
#137 = CLOSED_SHELL ( 'NONE', ( #257, #12, #19, #40, #272, #209, #31, #133, #81, #305 ) ) ;
#138 = CYLINDRICAL_SURFACE ( 'NONE', #149, 5.000000000000000888 ) ;
#139 = ORIENTED_EDGE ( 'NONE', *, *, #34, .T. ) ;
#140 = CARTESIAN_POINT ( 'NONE',  ( -3.000000000000000000, 0.000000000000000000, 5.000000000000000000 ) ) ;
#141 = CC_DESIGN_PERSON_AND_ORGANIZATION_ASSIGNMENT ( #245, #324, ( #38 ) ) ;
#142 = EDGE_LOOP ( 'NONE', ( #217, #166 ) ) ;
#143 = AXIS2_PLACEMENT_3D ( 'NONE', #73, #2, #285 ) ;
#144 = ORIENTED_EDGE ( 'NONE', *, *, #185, .F. ) ;
#145 = CALENDAR_DATE ( 2020, 23, 12 ) ;
#146 = CYLINDRICAL_SURFACE ( 'NONE', #208, 12.69999999999999929 ) ;
#147 = EDGE_CURVE ( 'NONE', #194, #6, #20, .T. ) ;
#148 = DIRECTION ( 'NONE',  ( -0.000000000000000000, 0.000000000000000000, 1.000000000000000000 ) ) ;
#149 = AXIS2_PLACEMENT_3D ( 'NONE', #267, #37, #111 ) ;
#150 = CYLINDRICAL_SURFACE ( 'NONE', #234, 5.000000000000000888 ) ;
#151 = PLANE ( 'NONE',  #143 ) ;
#152 = CARTESIAN_POINT ( 'NONE',  ( -1.614212418857619014, 0.000000000000000000, 0.000000000000000000 ) ) ;
#153 = LINE ( 'NONE', #94, #45 ) ;
#154 = DIRECTION ( 'NONE',  ( -1.000000000000000000, -0.000000000000000000, -0.000000000000000000 ) ) ;
#155 = CARTESIAN_POINT ( 'NONE',  ( 3.000000000000000000, 12.69999999999999929, 0.000000000000000000 ) ) ;
#156 = EDGE_CURVE ( 'NONE', #186, #323, #61, .T. ) ;
#157 = AXIS2_PLACEMENT_3D ( 'NONE', #128, #229, #55 ) ;
#158 = CIRCLE ( 'NONE', #288, 12.69999999999999929 ) ;
#159 = EDGE_CURVE ( 'NONE', #323, #186, #189, .T. ) ;
#160 = APPROVAL_DATE_TIME ( #10, #108 ) ;
#161 = FACE_OUTER_BOUND ( 'NONE', #84, .T. ) ;
#162 = CIRCLE ( 'NONE', #3, 12.69999999999999929 ) ;
#163 = DATE_AND_TIME ( #145, #107 ) ;
#164 = ORIENTED_EDGE ( 'NONE', *, *, #190, .T. ) ;
#165 =( NAMED_UNIT ( * ) SI_UNIT ( $, .STERADIAN. ) SOLID_ANGLE_UNIT ( ) );
#166 = ORIENTED_EDGE ( 'NONE', *, *, #34, .F. ) ;
#167 = SECURITY_CLASSIFICATION_LEVEL ( 'unclassified' ) ;
#168 = ORIENTED_EDGE ( 'NONE', *, *, #238, .F. ) ;
#169 = LOCAL_TIME ( 9, 22, 8.000000000000000000, #83 ) ;
#170 = PERSON_AND_ORGANIZATION ( #78, #266 ) ;
#171 = ORIENTED_EDGE ( 'NONE', *, *, #289, .F. ) ;
#172 = CC_DESIGN_DATE_AND_TIME_ASSIGNMENT ( #163, #220, ( #50 ) ) ;
#173 = CARTESIAN_POINT ( 'NONE',  ( 0.000000000000000000, 0.000000000000000000, 0.000000000000000000 ) ) ;
#174 = CARTESIAN_POINT ( 'NONE',  ( -1.614212418857619014, 0.000000000000000000, 5.000000000000000888 ) ) ;
#175 = DIRECTION ( 'NONE',  ( 0.000000000000000000, 0.000000000000000000, 1.000000000000000000 ) ) ;
#176 = AXIS2_PLACEMENT_3D ( 'NONE', #155, #125, #330 ) ;
#177 = DIRECTION ( 'NONE',  ( -1.000000000000000000, -0.000000000000000000, -0.000000000000000000 ) ) ;
#178 = FACE_OUTER_BOUND ( 'NONE', #295, .T. ) ;
#179 = CARTESIAN_POINT ( 'NONE',  ( -1.250000000000000222, 0.000000000000000000, 0.000000000000000000 ) ) ;
#180 = CC_DESIGN_PERSON_AND_ORGANIZATION_ASSIGNMENT ( #298, #64, ( #105 ) ) ;
#181 = FACE_OUTER_BOUND ( 'NONE', #241, .T. ) ;
#182 = CARTESIAN_POINT ( 'NONE',  ( -1.614212418857619014, 0.000000000000000000, 0.000000000000000000 ) ) ;
#183 = CIRCLE ( 'NONE', #157, 5.000000000000001776 ) ;
#184 = AXIS2_PLACEMENT_3D ( 'NONE', #120, #127, #332 ) ;
#185 = EDGE_CURVE ( 'NONE', #119, #9, #153, .T. ) ;
#186 = VERTEX_POINT ( 'NONE', #235 ) ;
#187 = APPROVAL_DATE_TIME ( #110, #316 ) ;
#188 = ORIENTED_EDGE ( 'NONE', *, *, #159, .F. ) ;
#189 = CIRCLE ( 'NONE', #59, 5.000000000000000000 ) ;
#190 = EDGE_CURVE ( 'NONE', #276, #88, #115, .T. ) ;
#191 = CARTESIAN_POINT ( 'NONE',  ( -3.000000000000000000, 0.000000000000000000, 0.000000000000000000 ) ) ;
#192 = CARTESIAN_POINT ( 'NONE',  ( 1.250000000000000444, 6.123233995736766282E-16, -5.000000000000000000 ) ) ;
#193 = PERSON_AND_ORGANIZATION ( #78, #266 ) ;
#194 = VERTEX_POINT ( 'NONE', #97 ) ;
#195 = DIRECTION ( 'NONE',  ( -1.000000000000000000, -0.000000000000000000, -0.000000000000000000 ) ) ;
#196 = VERTEX_POINT ( 'NONE', #53 ) ;
#197 = DIRECTION ( 'NONE',  ( -1.000000000000000000, -0.000000000000000000, -0.000000000000000000 ) ) ;
#198 = DIRECTION ( 'NONE',  ( -1.000000000000000000, -0.000000000000000000, -0.000000000000000000 ) ) ;
#199 = CARTESIAN_POINT ( 'NONE',  ( -3.000000000000000000, 0.000000000000000000, 0.000000000000000000 ) ) ;
#200 = DIRECTION ( 'NONE',  ( 0.000000000000000000, 0.000000000000000000, -1.000000000000000000 ) ) ;
#201 = CYLINDRICAL_SURFACE ( 'NONE', #211, 5.000000000000000888 ) ;
#202 = EDGE_CURVE ( 'NONE', #88, #276, #72, .T. ) ;
#203 = CYLINDRICAL_SURFACE ( 'NONE', #290, 12.69999999999999929 ) ;
#204 = FACE_BOUND ( 'NONE', #291, .T. ) ;
#205 = LINE ( 'NONE', #310, #302 ) ;
#206 = DIRECTION ( 'NONE',  ( 0.000000000000000000, 0.000000000000000000, 1.000000000000000000 ) ) ;
#207 = MANIFOLD_SOLID_BREP ( 'Ðý×', #137 ) ;
#208 = AXIS2_PLACEMENT_3D ( 'NONE', #307, #252, #175 ) ;
#209 = ADVANCED_FACE ( 'NONE', ( #181 ), #150, .F. ) ;
#210 = APPROVAL_ROLE ( '' ) ;
#211 = AXIS2_PLACEMENT_3D ( 'NONE', #182, #312, #129 ) ;
#212 = LOCAL_TIME ( 9, 22, 8.000000000000000000, #239 ) ;
#213 = CALENDAR_DATE ( 2020, 23, 12 ) ;
#214 = ORIENTED_EDGE ( 'NONE', *, *, #250, .T. ) ;
#215 = CARTESIAN_POINT ( 'NONE',  ( -3.000000000000000000, 0.000000000000000000, 12.69999999999999929 ) ) ;
#216 = FACE_OUTER_BOUND ( 'NONE', #82, .T. ) ;
#217 = ORIENTED_EDGE ( 'NONE', *, *, #132, .F. ) ;
#218 =( LENGTH_UNIT ( ) NAMED_UNIT ( * ) SI_UNIT ( .MILLI., .METRE. ) );
#219 = ORIENTED_EDGE ( 'NONE', *, *, #147, .F. ) ;
#220 = DATE_TIME_ROLE ( 'creation_date' ) ;
#221 = ORIENTED_EDGE ( 'NONE', *, *, #224, .F. ) ;
#222 = APPROVAL_STATUS ( 'not_yet_approved' ) ;
#223 = EDGE_LOOP ( 'NONE', ( #188, #63 ) ) ;
#224 = EDGE_CURVE ( 'NONE', #196, #109, #29, .T. ) ;
#225 = CARTESIAN_POINT ( 'NONE',  ( -1.250000000000000222, 5.000000000000000000, 0.000000000000000000 ) ) ;
#226 = APPLICATION_CONTEXT ( 'configuration controlled 3d designs of mechanical parts and assemblies' ) ;
#227 = CIRCLE ( 'NONE', #313, 12.69999999999999929 ) ;
#228 = DIRECTION ( 'NONE',  ( 0.000000000000000000, 0.000000000000000000, 1.000000000000000000 ) ) ;
#229 = DIRECTION ( 'NONE',  ( -1.000000000000000000, -0.000000000000000000, -0.000000000000000000 ) ) ;
#230 = CARTESIAN_POINT ( 'NONE',  ( -1.614212418857619014, 6.123233995736767268E-16, -5.000000000000000888 ) ) ;
#231 = EDGE_CURVE ( 'NONE', #88, #186, #205, .T. ) ;
#232 = DIRECTION ( 'NONE',  ( -1.000000000000000000, -0.000000000000000000, -0.000000000000000000 ) ) ;
#233 = FACE_OUTER_BOUND ( 'NONE', #91, .T. ) ;
#234 = AXIS2_PLACEMENT_3D ( 'NONE', #152, #311, #24 ) ;
#235 = CARTESIAN_POINT ( 'NONE',  ( -3.000000000000000000, 6.123233995736766282E-16, -5.000000000000000000 ) ) ;
#236 = EDGE_CURVE ( 'NONE', #196, #194, #183, .T. ) ;
#237 = CC_DESIGN_APPROVAL ( #28, ( #105 ) ) ;
#238 = EDGE_CURVE ( 'NONE', #119, #269, #158, .T. ) ;
#239 = COORDINATED_UNIVERSAL_TIME_OFFSET ( 8, 0, .AHEAD. ) ;
#240 = CIRCLE ( 'NONE', #134, 5.000000000000000000 ) ;
#241 = EDGE_LOOP ( 'NONE', ( #326, #319, #246, #114 ) ) ;
#242 = DATE_AND_TIME ( #112, #281 ) ;
#243 = ORIENTED_EDGE ( 'NONE', *, *, #314, .F. ) ;
#244 = ORIENTED_EDGE ( 'NONE', *, *, #190, .F. ) ;
#245 = PERSON_AND_ORGANIZATION ( #78, #266 ) ;
#246 = ORIENTED_EDGE ( 'NONE', *, *, #289, .T. ) ;
#247 = CC_DESIGN_APPROVAL ( #316, ( #50 ) ) ;
#248 = PERSON_AND_ORGANIZATION ( #78, #266 ) ;
#249 = ORIENTED_EDGE ( 'NONE', *, *, #89, .F. ) ;
#250 = EDGE_CURVE ( 'NONE', #194, #196, #80, .T. ) ;
#251 = DATE_AND_TIME ( #87, #54 ) ;
#252 = DIRECTION ( 'NONE',  ( -1.000000000000000000, -0.000000000000000000, -0.000000000000000000 ) ) ;
#253 = APPROVAL_ROLE ( '' ) ;
#254 = PLANE ( 'NONE',  #176 ) ;
#255 = VECTOR ( 'NONE', #256, 1000.000000000000000 ) ;
#256 = DIRECTION ( 'NONE',  ( -1.000000000000000000, -0.000000000000000000, -0.000000000000000000 ) ) ;
#257 = ADVANCED_FACE ( 'NONE', ( #99 ), #203, .T. ) ;
#258 = DIRECTION ( 'NONE',  ( 1.000000000000000000, 0.000000000000000000, 0.000000000000000000 ) ) ;
#259 = FACE_OUTER_BOUND ( 'NONE', #117, .T. ) ;
#260 = CARTESIAN_POINT ( 'NONE',  ( 3.000000000000000000, 0.000000000000000000, 0.000000000000000000 ) ) ;
#261 = DIRECTION ( 'NONE',  ( -1.000000000000000000, -0.000000000000000000, -0.000000000000000000 ) ) ;
#262 = AXIS2_PLACEMENT_3D ( 'NONE', #308, #258, #26 ) ;
#263 = EDGE_CURVE ( 'NONE', #269, #119, #328, .T. ) ;
#264 = AXIS2_PLACEMENT_3D ( 'NONE', #77, #101, #75 ) ;
#265 = ORIENTED_EDGE ( 'NONE', *, *, #231, .T. ) ;
#266 = ORGANIZATION ( 'UNSPECIFIED', 'UNSPECIFIED', '' ) ;
#267 = CARTESIAN_POINT ( 'NONE',  ( -1.614212418857619014, 0.000000000000000000, 0.000000000000000000 ) ) ;
#268 = APPROVAL_STATUS ( 'not_yet_approved' ) ;
#269 = VERTEX_POINT ( 'NONE', #306 ) ;
#270 = MECHANICAL_CONTEXT ( 'NONE', #8, 'mechanical' ) ;
#271 = ORIENTED_EDGE ( 'NONE', *, *, #314, .T. ) ;
#272 = ADVANCED_FACE ( 'NONE', ( #76 ), #286, .F. ) ;
#273 = ORIENTED_EDGE ( 'NONE', *, *, #96, .T. ) ;
#274 = APPROVAL_PERSON_ORGANIZATION ( #170, #316, #253 ) ;
#275 = PERSON_AND_ORGANIZATION_ROLE ( 'creator' ) ;
#276 = VERTEX_POINT ( 'NONE', #329 ) ;
#277 = DIRECTION ( 'NONE',  ( 0.000000000000000000, 0.000000000000000000, 1.000000000000000000 ) ) ;
#278 = FACE_BOUND ( 'NONE', #223, .T. ) ;
#279 = DIRECTION ( 'NONE',  ( -1.000000000000000000, -0.000000000000000000, -0.000000000000000000 ) ) ;
#280 = DIRECTION ( 'NONE',  ( -1.000000000000000000, -0.000000000000000000, -0.000000000000000000 ) ) ;
#281 = LOCAL_TIME ( 9, 22, 8.000000000000000000, #43 ) ;
#282 = DIRECTION ( 'NONE',  ( -1.000000000000000000, -0.000000000000000000, -0.000000000000000000 ) ) ;
#283 = DIRECTION ( 'NONE',  ( -1.000000000000000000, -0.000000000000000000, -0.000000000000000000 ) ) ;
#284 = CARTESIAN_POINT ( 'NONE',  ( -1.614212418857619014, 0.000000000000000000, 0.000000000000000000 ) ) ;
#285 = DIRECTION ( 'NONE',  ( 0.000000000000000000, 0.000000000000000000, -1.000000000000000000 ) ) ;
#286 = CYLINDRICAL_SURFACE ( 'NONE', #131, 5.000000000000000888 ) ;
#287 = UNCERTAINTY_MEASURE_WITH_UNIT (LENGTH_MEASURE( 1.000000000000000082E-05 ), #218, 'distance_accuracy_value', 'NONE');
#288 = AXIS2_PLACEMENT_3D ( 'NONE', #331, #232, #130 ) ;
#289 = EDGE_CURVE ( 'NONE', #276, #323, #69, .T. ) ;
#290 = AXIS2_PLACEMENT_3D ( 'NONE', #284, #154, #1 ) ;
#291 = EDGE_LOOP ( 'NONE', ( #67, #214 ) ) ;
#292 = ORIENTED_EDGE ( 'NONE', *, *, #156, .T. ) ;
#293 = APPLICATION_PROTOCOL_DEFINITION ( 'international standard', 'config_control_design', 1994, #8 ) ;
#294 = APPROVAL_PERSON_ORGANIZATION ( #248, #28, #325 ) ;
#295 = EDGE_LOOP ( 'NONE', ( #249, #299, #65, #301 ) ) ;
#296 = ORIENTED_EDGE ( 'NONE', *, *, #236, .F. ) ;
#297 = CC_DESIGN_PERSON_AND_ORGANIZATION_ASSIGNMENT ( #193, #321, ( #105 ) ) ;
#298 = PERSON_AND_ORGANIZATION ( #78, #266 ) ;
#299 = ORIENTED_EDGE ( 'NONE', *, *, #263, .T. ) ;
#300 = CALENDAR_DATE ( 2020, 23, 12 ) ;
#301 = ORIENTED_EDGE ( 'NONE', *, *, #96, .F. ) ;
#302 = VECTOR ( 'NONE', #282, 1000.000000000000000 ) ;
#303 =( NAMED_UNIT ( * ) PLANE_ANGLE_UNIT ( ) SI_UNIT ( $, .RADIAN. ) );
#304 = LINE ( 'NONE', #58, #32 ) ;
#305 = ADVANCED_FACE ( 'NONE', ( #216 ), #41, .F. ) ;
#306 = CARTESIAN_POINT ( 'NONE',  ( 3.000000000000000000, 1.555301434917138433E-15, -12.69999999999999929 ) ) ;
#307 = CARTESIAN_POINT ( 'NONE',  ( -1.614212418857619014, 0.000000000000000000, 0.000000000000000000 ) ) ;
#308 = CARTESIAN_POINT ( 'NONE',  ( -1.250000000000000222, 0.000000000000000000, 0.000000000000000000 ) ) ;
#309 = CARTESIAN_POINT ( 'NONE',  ( 3.000000000000000000, 0.000000000000000000, 12.69999999999999929 ) ) ;
#310 = CARTESIAN_POINT ( 'NONE',  ( -1.614212418857619014, 6.123233995736767268E-16, -5.000000000000000888 ) ) ;
#311 = DIRECTION ( 'NONE',  ( -1.000000000000000000, -0.000000000000000000, -0.000000000000000000 ) ) ;
#312 = DIRECTION ( 'NONE',  ( -1.000000000000000000, -0.000000000000000000, -0.000000000000000000 ) ) ;
#313 = AXIS2_PLACEMENT_3D ( 'NONE', #191, #195, #318 ) ;
#314 = EDGE_CURVE ( 'NONE', #9, #35, #227, .T. ) ;
#315 = AXIS2_PLACEMENT_3D ( 'NONE', #173, #277, #51 ) ;
#316 = APPROVAL ( #222, 'UNSPECIFIED' ) ;
#317 = ORIENTED_EDGE ( 'NONE', *, *, #132, .T. ) ;
#318 = DIRECTION ( 'NONE',  ( 0.000000000000000000, 0.000000000000000000, 1.000000000000000000 ) ) ;
#319 = ORIENTED_EDGE ( 'NONE', *, *, #202, .T. ) ;
#320 = DATE_TIME_ROLE ( 'classification_date' ) ;
#321 = PERSON_AND_ORGANIZATION_ROLE ( 'creator' ) ;
#322 = VECTOR ( 'NONE', #280, 1000.000000000000000 ) ;
#323 = VERTEX_POINT ( 'NONE', #140 ) ;
#324 = PERSON_AND_ORGANIZATION_ROLE ( 'design_owner' ) ;
#325 = APPROVAL_ROLE ( '' ) ;
#326 = ORIENTED_EDGE ( 'NONE', *, *, #231, .F. ) ;
#327 = PLANE ( 'NONE',  #85 ) ;
#328 = CIRCLE ( 'NONE', #15, 12.69999999999999929 ) ;
#329 = CARTESIAN_POINT ( 'NONE',  ( -1.250000000000000222, 0.000000000000000000, 5.000000000000000888 ) ) ;
#330 = DIRECTION ( 'NONE',  ( -0.000000000000000000, 0.000000000000000000, 1.000000000000000000 ) ) ;
#331 = CARTESIAN_POINT ( 'NONE',  ( 3.000000000000000000, 0.000000000000000000, 0.000000000000000000 ) ) ;
#332 = DIRECTION ( 'NONE',  ( 0.000000000000000000, 0.000000000000000000, 1.000000000000000000 ) ) ;
#333 = CARTESIAN_POINT ( 'NONE',  ( 3.000000000000000000, 0.000000000000000000, 0.000000000000000000 ) ) ;
#334 = CARTESIAN_POINT ( 'NONE',  ( -3.000000000000000000, 1.555301434917138433E-15, -12.69999999999999929 ) ) ;
#335 = AXIS2_PLACEMENT_3D ( 'NONE', #179, #126, #200 ) ;
ENDSEC;
END-ISO-10303-21;
